Музыка, песни, биографии

A Perfect Circle: Judith

A Perfect Circle: Judith

intro

|---------------------------------------------------------||

|---------------------------------------------------------||

|--7/9--9-9-xx7/9-10\9-7/9--7/9--9-9-9-9--19-19-18--------||

|---------------------------------------------------------||

|--5/7--7-7-xx5/7--8\7-5/7--5/7--7-7-7-7--17-17-16--------||

|---------------------------------------------------------||

(0:09)

|--------------------------------------------------||

|--------------------------------------------------||

|--7h9--9-9-9-9-7h9-10p9-7h9--7h9--9-9-9-9---------||

|------------------------------------------5--5--5-||

|--------------------------------------------------||

|--------------------------------------------------||

(0:19)let feed back (when played live,slide along the B(D)string)

|-------------------------------------------------||

|-------------------------------------------------||

|-------------------------------------------------||

|--5\(0)-2--2^^^^^^^^^^^^^^^^~~~~~~~~~~~~~~~~~~~--||

|-------------------------------------------------||

|-------------------------------------------------||

pm...............................................

|------------------------------------------------||

|------------------------------------------------||

|------------------------------------------------||

|---------------------------------------5--5--5--||

|-5h7-7-7----7--5h7-8p7-5h7-5h7-7-7-7-7-5--5--5--||

|-5h7-7-7----7--5h7-8p7-5h7-5h7-7-7-7-7-3--3--3--||

last time right before "fuck your god" still pm

|------------------------------------------------||

|------------------------------------------------||

|------------------------------------------------||

|---------------------------------------5--5--5--||

|-5h7-7-7----7--5h7-8p7-5h7-5h7-7-7-7-7-5--5--5--||

|-5h7-7-7----7--5h7-8p7-5h7-5h7-7-7-7-7-3--3--3--||

.......................................

the "fuck yor god" part. pm only at the (......) last time

|----------------------------------------------||----------------|

|----------------------------------------------||----------------|

|----------------------------------------------||----------------|

|-------------------------------------5--5--5--||----------5-----|

|-5h7-7-7--7--5h7-8p7-5h7-5h7-7-7-7-7-5--5--5--||--7-7-7-7-5-----|

|-5h7-7-7--7--5h7-8p7-5h7-5h7-7-7-7-7-3--3--3--||--7-7-7-7-3-/11-|

.................... ......... .......

(1:01) trem pick at "did it all for you"

|-----------------------||--------------------------|

|-----------------------||--------------------------|

|-15--14---9---9/10\9-9-||-14-13--16\18--11---------|

|-----------------------||--------------------------|

|-13--12---7---7//8\7-7-||-12-11--14\16---9---------|

|-----------------------||--------------------------|

(1:19)use a slide (when live, use delay too) last time

|-----------17\-------------15\--|----------17\-----------19/--||

|--/17-17----------/15-15--------|-/17-17---------/15-15-------||

|--------------------------------|-----------------------------||

|--------------------------------|-----------------------------||

|--------------------------------|-----------------------------||

|--------------------------------|-----------------------------||

this is the part playing under the riff tabbed above for 1:19

|-------------------------------------||

|-------------------------------------||

|-12-12-12-12--/-/--9--9--9--9-\------||

|-------------------------------------|| x2

|-10-10-10-10--/-/--7--7--7--7--\-----||

|-------------------------------------||

|---------------------------------------||

|---------------------------------------||

|-14-14-14-14--/-/---7-7-7-7-\-14-^-----||

|---------------------------------------||

|-12-12-12-12--/-/---5-5-5-5-\-12-^-----||

|---------------------------------------||

(1:32) - w/ slide

|----------------------------------||

|-12--12/14-10----9---9/10-5-------||

|----------------------------------||

|----------------------------------||

|----------------------------------||

|----------------------------------||

guitar two

|----------------------------------||

|----------------------------------||

|-16--16/18-14---13--13/14-9-------||

|----------------------------------||

|-14--14/16-12---11--11/12-7-------||

|----------------------------------||

(1:38) - still w/ slide x2 (let wring throught solo) last time

|-----------------------|------------------------------------||

|------15-14------------|------------------------------------||

|--/15--------9-9/10\9--|-/15--15-14--9-9/10\9-(/10\7)---0---||

|-----------------------|--------------------------------0---||

|-----------------------|--------------------------------0---||

|-----------------------|--------------------------------0---|| guitar

2 (this might be bass)

|---------------------------||

|---------------------------||

|---------------------------||

|---------------------------||

|--5h7-5p0------------------||

|-----------7p5--0-0--0--0--||

solo guitar two x2

|---------------------------------------------------||

|-15h17-17-17--15h17\21/-15h17--15h17-17-17-12--12--||

|---------------------------------------------------||

|---------------------------------------------------||

|---------------------------------------------------||

|---------------------------------------------------||

|---------------------------------------------------||

|-14--15~~~~~~--14--15~~~~~~-/15-15-15-15--10~~~----||

|---------------------------------------------------||

|---------------------------------------------------||

|---------------------------------------------------||

|---------------------------------------------------||

guitar one 3 times last time

|-------------------------|----------------------||

|-------------------------|----------------------||

|-------------------------|----------------------||

|-------------------------|----------------------||

|-----------5h7-5p0-------|--555555--------------||

|-0-0--0--0---------7p5---|-----------555555-----||

both guitars

|---------------------------------------------------------||

|---------------------------------------------------------||

|---------------------------------------------------------||

|--7/9--9-9-xx7/9-10\9-7/9--7/9--9-9-9-9--19-19-18--------||

|---------------------------------------------------------||

|--5/7--7-7-xx5/7--8\7-5/7--5/7--7-7-7-7--17-17-16--------||

|---------------------------------------------------------||

last time

|----------------------------------------------||--------------|

|----------------------------------------------||--------------|

|----------------------------------------------||--------------|

|-------------------------------------5--5--5--||---------5----|

|-5h7-7-7-7-7-5h7-7-7-7-7-5h7-7-7-7-7-5--5--5--||-7-7-7-7-5----|

|-5h7-7-7-7-7-5h7-7-7-7-7-5h7-7-7-7-7-3--3--3--||-7-7-7-7-3/10-|

..................................... ........

trem pick at "did it all for you"

|-----------------------||--------------------------|

|-----------------------||--------------------------|

|-15--14---9---9/10\9-9-||-14-13--16\18--11---------|

|-----------------------||--------------------------|

|-13--12---7---7//8\7-7-||-12-11--14\16---9---------|

|-----------------------||--------------------------|

use a slide (when live, use delay too) last time

|-----------17\-------------15\--|----------17\-----------19/--||

|--/17-17----------/15-15--------|-/17-17---------/15-15-------||

|--------------------------------|-----------------------------||

|--------------------------------|-----------------------------||

|--------------------------------|-----------------------------||

|--------------------------------|-----------------------------|| this

is the part playing under the riff tabbed above

|-------------------------------------||

|-------------------------------------||

|-12-12-12-12--/-/--9--9--9--9-\------||

|-------------------------------------|| x2

|-10-10-10-10--/-/--7--7--7--7--\-----||

|-------------------------------------||

|---------------------------------------||

|---------------------------------------||

|-14-14-14-14--/-/---7-7-7-7-\-14-^-----||

|---------------------------------------||

|-12-12-12-12--/-/---5-5-5-5-\-12-^-----||

|---------------------------------------||

w/ slide

|----------------------------------||

|-12--12/14-10----9---9/10-5-------||

|----------------------------------||

|----------------------------------||

|----------------------------------||

|----------------------------------||

guitar two

|----------------------------------||

|----------------------------------||

|-16--16/18-14---13--13/14-9-------||

|----------------------------------||

|-14--14/16-12---11--11/12-7-------||

|----------------------------------||

(2:59) use a slide

|-------------------------------------------------------------|

|-/17-17-17-17\15-15-15-15/19-19-19/21-17---------------------|

|-------------------------------------------------------------|

|-------------------------------------------------------------|

|-------------------------------------------------------------|

|-------------------------------------------------------------|

|-------------------------------------------------------------|

|--/17-17-17-17\15-15-15-(\)-12-12-12-10----------------------|

|-------------------------------------------------------------|

|-------------------------------------------------------------|

|-------------------------------------------------------------|

|-------------------------------------------------------------|

l-----------------------------------------------------||

|-/17-17-17-17\15-15--/19-19-19-19(/)-----------------||

|-----------------------------------------------------||

|-----------------------------------------------------||

|-----------------------------------------------------||

|-----------------------------------------------------||

guitar two, this is the part playing under the riff tabbed above

|-------------------------------------||

|-------------------------------------||

|-12-12-12-12--/-/--9--9--9--9-\------||

|-------------------------------------|| x2

|-10-10-10-10--/-/--7--7--7--7--\-----||

|-------------------------------------||

|---------------------------------------||

|---------------------------------------||

|-14-14-14-14--/-/---7-7-7-7-\-14-^-----||

|---------------------------------------||

|-12-12-12-12--/-/---5-5-5-5-\-12-^-----||

|---------------------------------------||

w/ slide

|----------------------------------||

|-12--12/14-10----9---9/10-5-------||

|----------------------------------||

|----------------------------------||

|----------------------------------||

|----------------------------------||

guitar two

|----------------------------------||

|----------------------------------||

|-16--16/18-14---13--13/14-9-------||

|----------------------------------||

|-14--14/16-12---11--11/12-7-------||

|----------------------------------||

use a slide (when live, use delay too) last time

|-----------17\-------------15\--|----------17\-----------19/--||

|--/17-17----------/15-15--------|-/17-17---------/15-15-------||

|--------------------------------|-----------------------------||

|--------------------------------|-----------------------------||

|--------------------------------|-----------------------------||

|--------------------------------|-----------------------------||

guitar two for above riff

|----------------------------------|

|----------------------------------|

|-12-12-12-12-12-\-9-9-9-9-9-------|

|-12-12-12-12-12-\-9-9-9-9-9-------|

|-10-10-10-10-10-\-7-7-7-7-7-------|

|----------------------------------|

|------------------------------------|

|------------------------------------|

|-12-12-12-12-12/////--9-9-9-9-9\\\\\|

|-12-12-12-12-12/////--9-9-9-9-9\\\\\|

|-10-10-10-10-10/////--7-7-7-7-7\\\\\|

|------------------------------------|

|-------------------------------------|

|-------------------------------------|

|-12-12-12-12-12-\--7-7-7-7-7-7-/14^--|

|-12-12-12-12-12-\--7-7-7-7-7-7-/14^--|

|-10-10-10-10-10-\--5-5-5-5-5-5-/12^--|

|-------------------------------------|

w/ slide

|------------------------------||

|-12--12/14-10----9---9/10-5---||

|------------------------------||

|------------------------------||

|------------------------------||

|------------------------------||

guitar two

|------------------------------||

|------------------------------||

|-16--16\18-14---13--13\14-9---||

|------------------------------||

|-14--14\16-12---11--11\12-7---||

|------------------------------||

last time

|----------------------------0---||

|----------------------------0---||

|-16--16\18-14---13--13\14---0---||

|----------------------------9---||

|-14--14\16-12---11--11\12--10---||

|----------------------------0---||