Музыка, песни, биографии

A Perfect Circle: Brena

A Perfect Circle: Brena

Brena-A Perfect Circle

Mer De Noms

C# F# B E G# C#

bass for 8 bars

e-----------------------------------------------------------------

b-----------------------------------------------------------------

g---------16-------17-16--16-----16---------------16-------17-16--

d----14------14---------------14-----14-------14-----14-----------

a-16------------16----------------------16-16-----------16--------

e-----------------------------------------------------------------

e-----------------------------------------------------------------

b-----------------------------------------------------------------

g-16-----16-----------------16------16---------16-----------------

d-----14-----14----16/18-18----18--------18--------18-------------

a---------------0--0-------------------------0---------0----------

e-----------------------------------------------------------------

Verse

e---------0-------------------------0-------------0---------------

b-------0---0----------0----------0---0---------------------------

g-----6--------------6----------6---------------6-----------------

d---6--------------6----------6---------------6-------------------

a-4--------------4----------4------------4------------------------

e-----------------------------------------------------------------

e--------------------------------------------7--------------------

b----------------------------------3---------5--------------------

g---------6----6-----------------6----6------6--------------------

d------0-----------------------0-------------0--------------------

a-4---------------------------------------------------------------

e----5----------------------5-------------------------------------

Chorus:

gtr 1.

e-----------------------------------------------------------------

b-----------------------------------------------------------------

g-x-6-6-9-9-6-6-11--4-4-6-6--6-9-9-6-6-611--4-4-6-6--6-6-9-6-6-611

d-x-6-6-9-9-6-6--x--x-x-x-x--x-x-x-x-x-x-x--x-x-x-x--x-x-x-x-x-xx-

a-x-4-4-7-7-4-4--9--2-2-4-4--4-7-7-4-4-4-9--2-2-4-4--4-4-7-4-4-49-

e-----------------------------------------------------------------

gtr 2.

e-----------------------------------------------------------------

b---9-9-----7-7---------------------------------------------------

g---8-8-9-9-6-6-2-2---4---7---------------------------------------

d---6-6-----4-4-2-2---4---7---------------------------------------

a-x-----7-7-----0-0---2---5---------------------------------------

e-----------------------------------------------------------------

Interlude:

e-----------------------------------------------------------------

b--------------------------------7-7-7-7-7-7-9-9-9-9-9-9-9-9-9-9-9

g-6-6-6-6-6-6-8-8-8-9-9--9-9-9-9-x-x-x-x-x-x-x-x-x-x-x-x-x-x-x-x-x

d-x-x-x-x-x-x-x-x-x-x-x--x-x-x-x-4-4-4-4-4-4-6-6-6-6-6-6-6-6-6-6-6

a-4-4-4-4-4-4-6-6-6-7-7--7-7-7-7----------------------------------

e-----------------------------------------------------------------

Solo:

e-12-11-----------------------------------------------------------

b-------9------------------------10p9--10p9-----------------------

g----------------------9h11-9-11--------------11-9p8-8------------

d-----------------------------------------------------------------

a-----------------------------------------------------------------

e-----------------------------------------------------------------

e-11p10p9---------------------------------------------------------

b---------12-10-9-10p9---------------------------4-5p4------------

g----------------------11p9-11b--11-9--------4-6-------6-4-6-4-6-4

d-------------------------------------11-2/6----------------------

a-----------------------------------------------------------------

e-----------------------------------------------------------------

e-----------------------------------------------------------------

b------5p4--------7p4---------------5p4---------------------------

g-6--4-----4-6--4-----4-6--6-4-6--4-----4-6-----------------------

d---------------------------------------------4h6--6b-------------

a------------------------------------------------------4-6b-6-0---

e-----------------------------------------------------------------

e----------0------------------------------------------------------

b----------0------------------------------------------------------

g----------6------------------------------------------------------

d----------6------------------------------------------------------

a----------4------------------------------------------------------

e-4-5--7----------------------------------------------------------

that’s all of it

trevor jones

timmy91199@yahoo.ca