Музыка, песни, биографии

Sepultura: Kaiowas

Sepultura: Kaiowas

Sepultura - Kaiowas

Tabbed By: Matt

EMail: satan_676@hatmail.com

this a mint accoustic song It sounds far better on a 12 string though

it took me a while to figure this out cos of the tuning

Drop D tuning

Db Ab Db Gb Bb Eb

Intro

Play Times 4

|-----|

|-----|

|--7--|

|--7--|

|--5--|

|--0--|

|--------------------------------------------------------------------|

|--------------------------------------------------------------------|

|--7--7--7--7--7--7--7--7--(5)-(5)-4--4--4--4----4--4--4--4--4--4----|

|--------------------------------------------------------------------|

|--5--5--5--5--5--5--5--5--3----3--2--2--2--2----2--2--2--2--2--2----|

|--0--0--0--0--0--0--0--0--0----0--0--0--0--0----0--0--0--0--0--0----|

Play 4 Times

|---------------------------------------------------------|

|---------------------------------------------------------|

|--3--3--3--3--3--3--3--3--3--3--3--3--3--3--3--3--3--3---|

|---------------------------------------------------------|

|--1--1--1--1--1--1--1--1--1--1--1--1--1--1--1--1--1--1---|

|--0--0--0--0--0--0--0--0--0--0--0--0--0--0--0--0--0--0---|

Riff 1

|--------------------------------------------------------------------------------|

|--------------------------------------------------------------------------------|

|-11--11--11--11--11--11--11--11--11--11--13--13--13--13--13--13--13--13--13--13-|

|--------------------------------------------------------------------------------|

|-9---9---9---9---9---9---9---9---9---9---11--11--11--11--11--11--11--11--11--11-|

|-0---0---0---0---0---0---0---0---0---0---0---0---0---0---0---0---0---0---0---0--||-------------------------------------------------------------------|

|-------------------------------------------------------------------|

|-------------------------------------------------------------------|

|-4-4-4-4-4-4-4-4-4-4--6-6-6-6-6-6-6-6-6-6--------------------------|

|-3-3-3-3-3-3-3-3-3-3--5-5-5-5-5-5-5-5-5-5--------------------------|

|-0-0-0-0-0-0-0-0-0-0--0-0-0-0-0-0-0-0-0-0--------------------------|

|--------------------------------------------------------|

|--------------------------------------------------------|

|---7--7--7--7--7--7--7--7-------------------------------|

|--------------------------------6-6-6-6-6-6-6-6-6-6-6-6-|

|---5--5--5--5--5--5--5--5--3--3-------------------------|

|---0--0--0--0--0--0--0--0--0--0-6-6-6-6-6-6-6-6-6-6-6-6-|

|--------------------------------------------------------|

|--------------------------------------------------------|

|---7--7--7--7--7--7--7--7-------------------------------|

|-----------------------------4-4-4-4-4-4-4-4-4-4-4-4----|

|---5--5--5--5--5--5--5--5-------------------------------|

|---0--0--0--0--0--0--0--0----4-4-4-4-4-4-4-4-4-4-4-4----|

|________play 8 times_____|

|------------------|-------------------------|

|------------------|-------------------------|

|------------------|-------------------------|

|-7--7--6--6--6--x-|--7--7--7--5--7--7--7--5-|

|-5--5--5--5--5--x-|--5--5--5--3--5--5--5--3-|

|-0--0--0--0--0--0-|--0--0--0--0--0--0--0--0-|

Riff 2 Play 2 times

|--------------------------------|

|--------------------------------|

|--------------------------------|

|--5-7--7--7--7--5-5/7--7--7--5--|

|--3/5--5--5--5--3-3/5--5--5--3--|

|----0--0--0--0--0---0--0--0--0--|

solo

E|-8--8--8--8--7--5-5-5-5-53-3-3-3/-8--8--8--8--7-5-5-5-5-5-3-3-3-3-|

B|-10-10-10-10-8--7-7-7-7-75-5-5-5/-10-10-10-10-8-7-7-7-7-7-5-5-5-5-|

E|-8--8--8--8--7-5-5-5-5-5-3-3-2-2-2-2-2p0-0-0-0-0h2-2-2-2-|

B|-10-10-10-10-8-7-7-7-7-7-5-5-3-3-3-3-31-1-1-1-1/3-3-3-3-|

E|-10-10-10-10---12-12-12-12---10-10-10-10-8--8--8--8--7-7-7-7-5-5-53-3-3-5-5---|

B|-12-12-12-12---13-13-13-13---12-12-12-12-10-10-10-10-8-8-8-8-7-7-75-5-5-7-7---|

E|-5/10-10-10-10-12-12-12-12-12-10-10-108--8--8--8--8--7-7-7-7-5-5-5-5-3-3-3-3-2-2-|

B|-7/12-12-12-12-13-13-13-13-13-12-12-1210-10-10-10-10-8-8-8-8-7-7-7-7-5-5-5-5-3-3-|

Riff 2 8 times

this is a fantastic song if you want the other Gutair parts email me

Matt