Музыка, песни, биографии

Sepultura: Infected Voice

Sepultura: Infected Voice

250 bpm (thats like crazzy speed right there)

|-----------------|-----------------|-----------------|-----------------||

|-----------------|-----------------|-----------------|-----------------||

|-----------------|-----------------|-----------------|-----------------||

|-----------------|-----------------|-9---------------|(9)--------------||

|-----------------|-----------------|-7---------------|(7)--------------||

|-5-0-0-5-0-0-5-0-|-5-0-0-5-0-0-5-0-|-0---------------|(0)--------------||

|-----------------|-----------------|-----------------|-----------------|

|-----------------|-----------------|-----------------|-----------------|

|-----------------|-----------------|-----------------|-----------------|

|-----------------|-----------------|-----------------|-----------------|

|-7-----7-----7---|-6---------------|-7-----7-----7-9-|-6---------------|

|---0-0---0-0---9-|---0-000-0-0-000-|---0-0---0-0-----|---0-000-0-0-000-|

{3} {3} {3} {3} {3} {3} {3} {3}

|-----------------|-----------------|-----------------|-----------------|

|-----------------|-----------------|-----------------|-----------------|

|-----------------|-----------------|-----------------|-----------------|

|-----------------|-----------------|-----------------|-----------------|

|-7-----7-----7---|-6---------------|-7-----7-----7-9-|-6---------------|

|---0-0---0-0---9-|---0-000-0-0-000-|---0-0---0-0-----|---0-000-0---0---|

{3} {3} {3} {3} {3} {3}

|-----------------|-----------------|-----------------|-----------------||

|-----------------|-----------------|-----------------|-----------------||

|-----------------|-----------------|-----------------|-----------------||

|-----------------|-----------------|-----------------|-----------------||

|-3-----3-----3---|-2---------------|-3-----3-----3---|-2---------------||

|-1-0-0-1-0-0-1---|-0-0-000-0-0-000-|-1-0-0-1-0-0-1---|-0-----------x--||

| {3} {3} {3} {3}

|-----------------|-----------------|-----------------|-----------------||

|-----------------|-----------------|-----------------|-----------------||

|-----------------|-----------------|-----------------|-----------------||

|-----------------|-----------------|-----------------|-----------------||

|-3-----3-----3---|-2---------------|-3-----3-----3---|-2---------------||

|-1-0-0-1-0-0-1---|-0---------------|-1-----1-----1---|-0-------5------||

|-----------------|-----------------|-----------------|-----------------|

|-----------------|-----------------|-----------------|-----------------|

|-----------------|-----------------|-----------------|-----------------|

|-----------------|-----------------|-----------------|-----------------|

|-----------------|-1---------------|-----------------|-1---------------|

|-0-0-0-0-0-0-0-2-|-----0-0-0-0-0-0-|-0-0-0-0-0-0-0-2-|-----0-0-0-0-0-0-|

|-----------------|-----------------|-----------------|-----------------||

|-----------------|-----------------|-----------------|-----------------||

|-----------------|-----------------|-----------------|-----------------||

|-----------------|-----------------|-----------------|-----------------||

|-----------------|-1---------------|-----------------|-1---------------||

|-0-0-0-0-0-0-0-2-|-----0-0-0-0-0-0-|-0-0-0-0-0-0-0-2-|-----0-0-0-0-0-0-||

|-----------------|-----------------|-----------------|-----------------|

|-11---1010----9-|-9-----------6---|-6-------------5-|-5---------------|

|-----------------|-----------------|-----------------|-------------4---|

|-8----7-7-----6-|-6-----------3---|-3-------------2-|-2-----------2---|

|-----------------|-----------------|-----------------|-----------------|

|-----------------|-----------------|-----------------|-----------------|

|

|-----------------|-----------------|-----------------|-----------------|

|-----------------|-----------------|-----------------|-----------------|

|-----------------|-----------------|-----------------|-----------------|

|-----------------|-----------------|-----------------|-----------------|

|-2---------------|(2)--------------|(2)--------------|(2)--------------|

|-0---------------|(0)--------------|(0)--------------|(0)--------------|

|-----------------|-----------------|-----------------|-----------------||

|-----------------|-----------------|-----------------|-----------------||

|-10------9-------|-8-----------5---|-5---------------|-4---------------||

|-8-------7-------|-6-----------3---|-3---------------|-2---------------||

|-----------------|-----------------|-----------------|-----------------||

|-----------------|-----------------|-----------------|-----------------||

|

|-----------------|-----------------|-----------------|-----------------||

|-----------------|-----------------|-----------------|-----------------||

|-10------9-------|-8---------------|-----------------|-----------------||

|-8-------7-------|-6---------------|-----------------|-----------------||

|-----------------|-------------3---|-3---------------|-2---------------||

|-----------------|-------------1---|-1---------------|-0-----------x--||

verse 1

|-----------------|-----------------|-----------------|-----------------|

|-----------------|-----------------|-----------------|-----------------|

|-----------------|-----------------|-----------------|-----------------|

|-----------------|-----------------|-----------------|-----------------|

|-----------------|-----------------|-----------------|-2-1-----2-1-----|

|-8-0-0-4-0-0-2-0-|-8-0-0-4-0-0-2-0-|-8-0-0-4-0-0-2-0-|-----3-0-----3-0-|

|-----------------|-----------------|-----------------|-----------------|

|-----------------|-----------------|-----------------|-----------------|

|-----------------|-----------------|-----------------|-----------------|

|-----------------|-----------------|-----------------|-----------------|

|-----------------|-----------------|-----------------|-2-1-----2-1-----|

|-8-0-0-4-0-0-2-0-|-8-0-0-4-0-0-2-0-|-8-0-0-4-0-0-2-0-|-----3-0-----3-0-|

|-----------------|-----------------|-----------------|-----------------|

|-----------------|-----------------|-----------------|-----------------|

|-----------------|-----------------|-----------------|-----------------|

|-----------------|-----------------|-----------------|-----------------|

|-----------------|-----------------|-----------------|-2-1-----2-1-----|

|-8-0-0-4-0-0-2-0-|-8-0-0-4-0-0-2-0-|-8-0-0-4-0-0-2-0-|-----3-0-----3-0-|

|-----------------|-----------------|-----------------|-----------------||

|-----------------|-----------------|-----------------|-----------------||

|-----------------|-----------------|-----------------|-----------------||

|-----------------|-----------------|-----------------|-----------------||

|-----------------|-----------------|-----------------|-2-1-----2-1-----||

|-8-0-0-4-0-0-2-0-|-8-0-0-4-0-0-2-0-|-8-0-0-4-0-0-2-0-|-----3-0-----3-0-||

chorus

|-----------------|-----------------|-----------------|-----------------|

|-----------------|-----------------|-----------------|-----------------|

|-----------------|-----------------|-----------------|-----------------|

|-----------------|-----------------|-----------------|-----------------|

|-----------------|-------5-----6---|-----------------|-------5-----6---|

|-4444444444444444|-544444--4-4-----|-4444444444444444|-544444--4-4-----|

|-----------------|-----------------|-----------------|-----------------|

|-----------------|-----------------|-----------------|-----------------|

|-----------------|-----------------|-----------------|-----------------|

|-----------------|-----------------|-----------------|-----------------|

|-5---------------|-65---65---6---|-----------------|-------5-----6---|

|-3---333333333333|-43---43---4---|-4444444444444444|-544444--4-4-----|

|-----------------|-----------------|-----------------|-----------------|

|-----------------|-----------------|-----------------|-----------------|

|-----------------|-----------------|-----------------|-----------------|

|-----------------|-----------------|-----------------|-----------------|

|-----------------|-------5-----6---|-5---------------|-65---65---6---|

|-4444444444444444|-544444--4-4-----|-3---333333333333|-43---43---4---|

|-----------------|-----------------|-----------------||

|-----------------|-----------------|-----------------||

|-----------------|-----------------|-----------------||

|-----------------|-----------------|-----------------||

|-65-------------|-65---65---6--|-3-----3-----3---||

|-43-333333333333|-43---43---4--|-1-----1-----1---||

|-----------------|-----------------|-----------------|-----------------|

|-----------------|-----------------|-----------------|-----------------|

|-----------------|-----------------|-----------------|-----------------|

|-----------------|-----------------|-----------------|-----------------|

|-7-----7-----7---|-6---------------|-7-----7-----7-9-|-6---------------|

|---0-0---0-0---9-|---0-000-0-0-000-|---0-0---0-0-----|---0-000-0-0-000-|

{3} {3} {3} {3} {3} {3} {3} {3}

|-----------------|-----------------|-----------------|-----------------||

|-----------------|-----------------|-----------------|-----------------||

|-----------------|-----------------|-----------------|-----------------||

|-----------------|-----------------|-----------------|-----------------||

|-7-----7-----7---|-6---------------|-7-----7-----7-9-|-6---------------||

|---0-0---0-0---9-|---0-000-0-0-000-|---0-0---0-0-----|---0-000-0---x--||

{3} {3} {3} {3} {3} {3}

bridge

|-----------------|-----------------|-----------------|-----------------|

|-----------------|-----------------|-----------------|-----------------|

|-----------------|-----------------|-----------------|-----------------|

|-----------------|-----------------|-----------------|-----------------|

|-----------------|-1---------------|-----------------|-1---------------|

|-0-0-0-0-0-0-0-2-|-----0-0-0-0-0-0-|-0-0-0-0-0-0-0-2-|-----0-0-0-0-0-0-|

|-----------------|-----------------|-----------------|-----------------||

|-----------------|-----------------|-----------------|-----------------||

|-----------------|-----------------|-----------------|-----------------||

|-----------------|-----------------|-----------------|-----------------||

|-----------------|-1---------------|-----------------|-1---------------||

|-0-0-0-0-0-0-0-2-|-----0-0-0-0-0-0-|-0-0-0-0-0-0-0-2-|-----0-0-0-0-0-0-||

|-----------------|-----------------|-----------------|-----------------||

|-----------------|-----------------|-----------------|-----------------||

|-----------------|-----------------|-----------------|-----------------||

|-----------------|-----------------|-----------------|-----------------||

|-----------------|---------6---6---|-----------------|---------6---6---||

|-0-0-000-0-0-000-|-0-0-000-4---4---|-0-0-000-0-0-000-|-0-0-000-4---4-0-||

{3} {3} {3} {3} {3} {3} {3} {3} {3} {3} {3} {3}

|-----------------|-----------------|-----------------|-----------------|

|-----------------|-----------------|-----------------|-----------------|

|-----------------|-----------------|-----------------|-----------------|

|-----------------|-----------------|-----------------|-----------------|

|-----------------|-------6---6-----|-----------------|-------6---6-----|

|-5-0-7-0-8-0-7-0-|-5-0-0-4---4---0-|-5-0-7-0-8-0-7-0-|-5-0-0-4---4---0-|

|-----------------|-----------------|-----------------|-----------------||

|-----------------|-----------------|-----------------|-----------------||

|-----------------|-----------------|-----------------|-----------------||

|-----------------|-----------------|-----------------|-----------------||

|-----------------|-------6---6-----|-----------------|-------6---6-----||

|-5-0-7-0-8-0-7-0-|-5-0-0-4---4---0-|-5-0-7-0-8-0-7-0-|-5-0-0-4---4---0-||

verse 2

|-----------------|-----------------|-----------------|-----------------|

|-----------------|-----------------|-----------------|-----------------|

|-----------------|-----------------|-----------------|-----------------|

|-----------------|-----------------|-----------------|-----------------|

|-3-------3-------|-3-----2-----2---|-3-------3-------|-3-----2-----2---|

|-1-0-0-0-1-0-0-0-|-1-0-0-0-----0---|-1-0-0-0-1-0-0-0-|-1-0-0-0-----0---|

|-----------------|-----------------|-----------------|-----------------||

|-----------------|-----------------|-----------------|-----------------||

|-----------------|-----------------|-----------------|-----------------||

|-----------------|-----------------|-----------------|-----------------||

|-3-------3-------|-3-----2-----2---|-3-------3-------|-3-----2-----2---||

|-1-0-0-0-1-0-0-0-|-1-0-0-0-----0---|-1-0-0-0-1-0-0-0-|-1-0-0-0-----0---||

|-----------------|-----------------|-----------------|-----------------|

|-----------------|-----------------|-----------------|-----------------|

|-----------------|-----------------|-----------------|-----------------|

|-----------------|-----------------|-----------------|-----------------|

|-5---7---8---7---|-5-----6---6-----|-5---7---8---7---|-5-----6---6-----|

|---0---0---0---0-|---0-0-4---4---0-|---0---0---0---0-|---0-0-4---4---0-|

|

|-----------------|-----------------|-----------------|-----------------|

|-----------------|-----------------|-----------------|-----------------|

|-----------------|-----------------|-----------------|-----------------|

|-----------------|-----------------|-----------------|-----------------|

|-----------------|-------6---6-----|-----------------|-------6---6-----|

|-5-0-7-0-8-0-7-0-|-5-0-0-4---4---0-|-5-0-7-0-8-0-7-0-|-5-0-0-4---4---0-|

|-----------------|-----------------|-----------------|-----------------||

|-----------------|-----------------|-----------------|-----------------||

|-----------------|-----------------|-----------------|-----------------||

|-----------------|-----------------|-----------------|-----------------||

|-5---7---8---7---|-5-----6---6-----|-5---7---8---7---|-5-----6---6-----||

|---0---0---0---0-|---0-0-4---4---0-|---0---0---0---0-|---0-0-4---4-----||

|

|-----------------|-----------------|-----------------|-----------------||

|-----------------|-----------------|-----------------|-----------------||

|-----------------|-----------------|-----------------|-----------------||

|-----------------|-----------------|-----------------|-----------------||

|-----------------|-------6---6-----|-----------------|-------6---6-----||

|-5-0-7-0-8-0-7-0-|-5-0-0-4---4---0-|-5-0-7-0-8-0-7-0-|-5-0-0-4---4-----||

|-----------------|-----------------|-----------------|-----------------|

|-----------------|-----------------|-----------------|-----------------|

|-----------------|-----------------|-----------------|-----------------|

|-----------------|-----------------|-----------------|-----------------|

|-2-----2-----2---|-----2-------2---|-2-----2-----2---|-----2-------2---|

|-0---0-0---0-0---|-000-0---000-0---|-0---0-0---0-0---|-000-0---000-0---|

{3} {3} {3} {3}

|-----------------|-----------------|-----------------|-----------------||

|-----------------|-----------------|-----------------|-----------------||

|-----------------|-----------------|-----------------|-----------------||

|-----------------|-----------------|-----------------|-----------------||

|-2-----2-----2---|-----2-------2---|-2-----2-----2---|-----2-------2---||

|-0---0-0---0-0---|-000-0---000-0---|-0---0-0---0-0---|-000-0---000-0---||

{3} {3} {3} {3}

|-----------------|-----------------|-----------------|-----------------|

|-----------------|-----------------|-----------------|-----------------|

|-----------------|-----------------|-----------------|-----------------|

|-----------------|-----------------|-3---------------|-----------------|

|-2-------2-------|---------2-----2-|---2-----2-------|---------2-----2-|

|---1-1-1---1-1-1-|-1-1-1-1---1-1---|-----1-1---1-1-1-|-1-1-1-1---1-1---|

|-----------------|-----------------|-----------------|-----------------||

|-----------------|-----------------|-----------------|-----------------||

|-----------------|-----------------|-----------------|-----------------||

|-3---------------|-----------------|-3---------------|-3-2-----1-------||

|---2-----2-------|---------2-----2-|---2-----2-------|-----3-2---2-1---||

|-----1-1---1-1-1-|-1-1-1-1---1-1---|-----1-1---1-1-1-|---------------2-||

|-----------------|-----------------|-----------------|-----------------|

|-----------------|-----------------|-----------------|-----------------|

|-----------------|-----------------|-----------------|-----------------|

|-----------------|-----------------|-3---------------|-3-2-----1-------|

|-2-------2-------|---------2-----2-|---2-----2-------|-----3-2---2-1---|

|---1-1-1---1-1-1-|-1-1-1-1---1-1---|-----1-1---1-1-1-|---------------2-|

|

|-----------------|-----------------|-----------------|-----------------|

|-----------------|-----------------|-----------------|-----------------|

|-----------------|-----------------|-----------------|-----------------|

|-----------------|-----------------|-----------------|-3-2-----1-------|

|-3---------------|(3)--------------|-3---------------|-----3-2---2-1---|

|-1---------------|(1)--------------|-1---------------|---------------2-|

|-----------------|-----------------|-----------------|-----------------||

|-----------------|-----------------|-----------------|-----------------||

|-----------------|-----------------|-----------------|-----------------||

|-----------------|-----------------|-3---------------|-3-2-----1-------||

|-2-------2-------|---------2-----2-|---2-----2-------|-----3-2---2-1---||

|---1-1-1---1-1-1-|-1-1-1-1---1-1---|-----1-1---1-1-1-|---------------2-||

|

|-----------------|-----------------|-----------------|-----------------||

|-----------------|-----------------|-----------------|-----------------||

|-----------------|-----------------|-----------------|-----------------||

|-----------------|-----------------|-----------------|-3-2-----1-------||

|-3---------------|(3)--------------|-3---------------|-----3-2---2-1---||

|-1---------------|(1)--------------|-1---------------|---------------2-||

guitar solo

|-----------------|-----------------|-----------------|-----------------|

|-----------------|-----------------|-----------------|-----------------|

|-----------------|-----------------|-----------------|-----------------|

|-----------------|-----------------|-----------------|-----------------|

|-2-3-------------|-2-3-------------|-6-------6-------|-6-------5-------|

|-0-1-111111111111|-0-1-111111111111|-4-0000004-000000|-4-0000003-000000|

|-----------------|-----------------|-----------------|-----------------|

|-----------------|-----------------|-----------------|-----------------|

|-----------------|-----------------|-----------------|-----------------|

|-----------------|-----------------|-----------------|-----------------|

|-2-3-------------|-2-3-------------|-6-------6-------|-6-------5-------|

|-0-1-111111111111|-0-1-111111111111|-4-0000004-000000|-4-0000003-000000|

|-----------------|-----------------|-----------------|-----------------|

|-----------------|-----------------|-----------------|-----------------|

|-----------------|-----------------|-----------------|-----------------|

|-----------------|-----------------|-----------------|-----------------|

|-2-3-------------|-2-3-------------|-6-------6-------|-6-------5-------|

|-0-1-111111111111|-0-1-111111111111|-4-0000004-000000|-4-0000003-000000|

|-----------------|-----------------|-----------------|-----------------||

|-----------------|-----------------|-----------------|-----------------||

|-----------------|-----------------|-----------------|-----------------||

|-----------------|-----------------|-----------------|-----------------||

|-2-3-------------|-2-3-------------|-6-------6-------|-6-------5-------||

|-0-1-111111111111|-0-1-111111111111|-4-0000004-000000|-4-0000003-000000||

verse 3

|-----------------|-----------------|-----------------|-----------------|

|-----------------|-----------------|-----------------|-----------------|

|-----------------|-----------------|-----------------|-----------------|

|-----------------|-----------------|-----------------|-----------------|

|-----------------|-----------------|-----------------|-2-1-----2-1-----|

|-8-0-0-4-0-0-2-0-|-8-0-0-4-0-0-2-0-|-8-0-0-4-0-0-2-0-|-----3-0-----3-0-|

|-----------------|-----------------|-----------------|-----------------||

|-----------------|-----------------|-----------------|-----------------||

|-----------------|-----------------|-----------------|-----------------||

|-----------------|-----------------|-----------------|-----------------||

|-----------------|-----------------|-----------------|-2-1-----2-1-----||

|-8-0-0-4-0-0-2-0-|-8-0-0-4-0-0-2-0-|-8-0-0-4-0-0-2-0-|-----3-0-----3-0-||

|-----------------|-----------------|-----------------|-----------------|

|-----------------|-----------------|-----------------|-----------------|

|-----------------|-----------------|-----------------|-----------------|

|-----------------|-----------------|-----------------|-----------------|

|-7-----7-----7---|-6---------------|-7-----7-----7-9-|-6---------------|

|---0-0---0-0---9-|---0-000-0-0-000-|---0-0---0-0-----|---0-000-0-0-000-|

{3} {3} {3} {3} {3} {3} {3} {3}

|-----------------|-----------------|-----------------|-----------------||

|-----------------|-----------------|-----------------|-----------------||

|-----------------|-----------------|-----------------|-----------------||

|-----------------|-----------------|-----------------|-----------------||

|-7-----7-----7---|-6---------------|-7-----7-----7-9-|-6---------------||

|---0-0---0-0---9-|---0-000-0-0-000-|---0-0---0-0-----|---0-000-0-0-000-||

{3} {3} {3} {3} {3} {3} {3} {3}

-great words from the great nick